2ちゃんねる ★スマホ版★ ■掲示板に戻る■ 全部 1- 最新50  

■ このスレッドは過去ログ倉庫に格納されています

FFシリーズのギターのTAB譜

1 :名無し:2006/12/14(木) 20:41:25 ID:LAHaNA9N0
ビッグブリッヂとかあったら。。。

2 :名前が無い@ただの名無しのようだ:2006/12/14(木) 21:10:24 ID:ShiTK34/0
2

3 :名前が無い@ただの名無しのようだ:2006/12/14(木) 22:02:08 ID:wwko9+5c0
ザナルカンドにて、はるかなる故郷、ギルバートのリュート、とかあったらいいな

4 :名前が無い@ただの名無しのようだ:2006/12/14(木) 22:58:17 ID:TaIEsGb60
ドラクエのギター弾き語り集みたいなのがありゃいいんだけどね

5 :名前が無い@ただの名無しのようだ:2006/12/14(木) 23:19:41 ID:wwko9+5c0
喪女板で見つけた
チョコボのテーマ

| | | | | | | |
|10------7-----------10--7-------|7---------------7---------------|
|------------8---------------8---|--------8-------------------10--|
|----------------9---------------|--------------------------------|
|--------------------------------|--------------------------------|
|--------------------------------|--------------------------------|
|--------------------------------|--------------------------------|

| | | | | | | |
|------5-------------------------|------7-10--12--13--------------|
|8---8---8---6---8-----------6---|8---8---------------------------|
|--------------------------------|--------------------------------|
|--------------------------------|--------------------------------|
|--------------------------------|--------------------------------|
|--------------------------------|--------------------------------|

6 :名前が無い@ただの名無しのようだ:2006/12/14(木) 23:20:34 ID:/xHXx5Di0
で?

7 :名前が無い@ただの名無しのようだ:2006/12/14(木) 23:24:49 ID:3yt392FcO
ビサイドで流れるやつはみたことあるな
すごい簡単だった

8 :名前が無い@ただの名無しのようだ:2006/12/15(金) 00:29:48 ID:ivzDesLd0
>>4
何を語るのか知らないがギターに編曲したスコアはあるよ

9 :名前が無い@ただの名無しのようだ:2006/12/15(金) 01:28:28 ID:uaHh69J8O
>>3
10はギタースコア売ってたぞ

10 :名前が無い@ただの名無しのようだ:2006/12/15(金) 21:40:55 ID:QMDjVluv0
アレンジもんなら見たことあるが、オリジナルは知らんな
ピアノは出てるけどなw

3 KB
■ このスレッドは過去ログ倉庫に格納されています

★スマホ版★ 掲示板に戻る 全部 前100 次100 最新50

read.cgi ver 05.02.02 2014/06/23 Mango Mangüé ★
FOX ★ DSO(Dynamic Shared Object)